  0
SECTION
  2
HEADER
  9
$ACADVER
  1
AC1015
  9
$ACADMAINTVER
 70
     6
  9
$DWGCODEPAGE
  3
ANSI_1254
  9
$INSBASE
 10
0.0
 20
0.0
 30
0.0
  9
$EXTMIN
 10
0.0
 20
0.0
 30
0.0
  9
$EXTMAX
 10
279.4
 20
215.9
 30
0.0
  9
$LIMMIN
 10
0.0
 20
0.0
  9
$LIMMAX
 10
279.4
 20
215.9
  9
$ORTHOMODE
 70
     0
  9
$REGENMODE
 70
     1
  9
$FILLMODE
 70
     1
  9
$QTEXTMODE
 70
     0
  9
$MIRRTEXT
 70
     1
  9
$LTSCALE
 40
1.0
  9
$ATTMODE
 70
     1
  9
$TEXTSIZE
 40
3.5
  9
$TRACEWID
 40
1.0
  9
$TEXTSTYLE
  7
Standard
  9
$CLAYER
  8
0
  9
$CELTYPE
  6
ByLayer
  9
$CECOLOR
 62
   256
  9
$CELTSCALE
 40
1.0
  9
$DISPSILH
 70
     0
  9
$DIMSCALE
 40
1.0
  9
$DIMASZ
 40
3.5
  9
$DIMEXO
 40
1.0
  9
$DIMDLI
 40
3.75
  9
$DIMRND
 40
0.0
  9
$DIMDLE
 40
0.0
  9
$DIMEXE
 40
1.0
  9
$DIMTP
 40
0.0
  9
$DIMTM
 40
0.0
  9
$DIMTXT
 40
3.5
  9
$DIMCEN
 40
2.5
  9
$DIMTSZ
 40
0.0
  9
$DIMTOL
 70
     0
  9
$DIMLIM
 70
     0
  9
$DIMTIH
 70
     1
  9
$DIMTOH
 70
     1
  9
$DIMSE1
 70
     0
  9
$DIMSE2
 70
     0
  9
$DIMTAD
 70
     1
  9
$DIMZIN
 70
     0
  9
$DIMBLK
  1

  9
$DIMASO
 70
     1
  9
$DIMSHO
 70
     1
  9
$DIMPOST
  1

  9
$DIMAPOST
  1

  9
$DIMALT
 70
     0
  9
$DIMALTD
 70
     3
  9
$DIMALTF
 40
0.0393700787
  9
$DIMLFAC
 40
1.0
  9
$DIMTOFL
 70
     1
  9
$DIMTVP
 40
0.0
  9
$DIMTIX
 70
     0
  9
$DIMSOXD
 70
     0
  9
$DIMSAH
 70
     0
  9
$DIMBLK1
  1

  9
$DIMBLK2
  1

  9
$DIMSTYLE
  2
ISO-25
  9
$DIMCLRD
 70
     0
  9
$DIMCLRE
 70
     0
  9
$DIMCLRT
 70
     0
  9
$DIMTFAC
 40
1.0
  9
$DIMGAP
 40
1.524
  9
$DIMJUST
 70
     0
  9
$DIMSD1
 70
     0
  9
$DIMSD2
 70
     0
  9
$DIMTOLJ
 70
     0
  9
$DIMTZIN
 70
     0
  9
$DIMALTZ
 70
     0
  9
$DIMALTTZ
 70
     0
  9
$DIMUPT
 70
     0
  9
$DIMDEC
 70
     2
  9
$DIMTDEC
 70
     2
  9
$DIMALTU
 70
     2
  9
$DIMALTTD
 70
     3
  9
$DIMTXSTY
  7
Standard
  9
$DIMAUNIT
 70
     0
  9
$DIMADEC
 70
     2
  9
$DIMALTRND
 40
0.0
  9
$DIMAZIN
 70
     0
  9
$DIMDSEP
 70
    44
  9
$DIMATFIT
 70
     3
  9
$DIMFRAC
 70
     0
  9
$DIMLDRBLK
  1

  9
$DIMLUNIT
 70
     2
  9
$DIMLWD
 70
    -2
  9
$DIMLWE
 70
    -2
  9
$DIMTMOVE
 70
     0
  9
$LUNITS
 70
     2
  9
$LUPREC
 70
     2
  9
$SKETCHINC
 40
1.0
  9
$FILLETRAD
 40
10.0
  9
$AUNITS
 70
     0
  9
$AUPREC
 70
     2
  9
$MENU
  1
.
  9
$ELEVATION
 40
0.0
  9
$PELEVATION
 40
0.0
  9
$THICKNESS
 40
0.0
  9
$LIMCHECK
 70
     0
  9
$CHAMFERA
 40
0.0
  9
$CHAMFERB
 40
0.0
  9
$CHAMFERC
 40
0.0
  9
$CHAMFERD
 40
0.0
  9
$SKPOLY
 70
     0
  9
$TDCREATE
 40
2460703.593676343
  9
$TDUCREATE
 40
2460703.468676343
  9
$TDUPDATE
 40
2460703.593676481
  9
$TDUUPDATE
 40
2460703.468676481
  9
$TDINDWG
 40
0.0000000116
  9
$TDUSRTIMER
 40
0.0000000116
  9
$USRTIMER
 70
     1
  9
$ANGBASE
 50
0.0
  9
$ANGDIR
 70
     0
  9
$PDMODE
 70
     0
  9
$PDSIZE
 40
-1.0
  9
$PLINEWID
 40
0.0
  9
$SPLFRAME
 70
     0
  9
$SPLINETYPE
 70
     6
  9
$SPLINESEGS
 70
     8
  9
$HANDSEED
  5
D2
  9
$SURFTAB1
 70
     6
  9
$SURFTAB2
 70
     6
  9
$SURFTYPE
 70
     6
  9
$SURFU
 70
     6
  9
$SURFV
 70
     6
  9
$UCSBASE
  2

  9
$UCSNAME
  2

  9
$UCSORG
 10
0.0
 20
0.0
 30
0.0
  9
$UCSXDIR
 10
1.0
 20
0.0
 30
0.0
  9
$UCSYDIR
 10
0.0
 20
1.0
 30
0.0
  9
$UCSORTHOREF
  2

  9
$UCSORTHOVIEW
 70
     0
  9
$UCSORGTOP
 10
0.0
 20
0.0
 30
0.0
  9
$UCSORGBOTTOM
 10
0.0
 20
0.0
 30
0.0
  9
$UCSORGLEFT
 10
0.0
 20
0.0
 30
0.0
  9
$UCSORGRIGHT
 10
0.0
 20
0.0
 30
0.0
  9
$UCSORGFRONT
 10
0.0
 20
0.0
 30
0.0
  9
$UCSORGBACK
 10
0.0
 20
0.0
 30
0.0
  9
$PUCSBASE
  2

  9
$PUCSNAME
  2

  9
$PUCSORG
 10
0.0
 20
0.0
 30
0.0
  9
$PUCSXDIR
 10
1.0
 20
0.0
 30
0.0
  9
$PUCSYDIR
 10
0.0
 20
1.0
 30
0.0
  9
$PUCSORTHOREF
  2

  9
$PUCSORTHOVIEW
 70
     0
  9
$PUCSORGTOP
 10
0.0
 20
0.0
 30
0.0
  9
$PUCSORGBOTTOM
 10
0.0
 20
0.0
 30
0.0
  9
$PUCSORGLEFT
 10
0.0
 20
0.0
 30
0.0
  9
$PUCSORGRIGHT
 10
0.0
 20
0.0
 30
0.0
  9
$PUCSORGFRONT
 10
0.0
 20
0.0
 30
0.0
  9
$PUCSORGBACK
 10
0.0
 20
0.0
 30
0.0
  9
$USERI1
 70
     0
  9
$USERI2
 70
     0
  9
$USERI3
 70
     0
  9
$USERI4
 70
     0
  9
$USERI5
 70
     0
  9
$USERR1
 40
0.0
  9
$USERR2
 40
0.0
  9
$USERR3
 40
0.0
  9
$USERR4
 40
0.0
  9
$USERR5
 40
0.0
  9
$WORLDVIEW
 70
     1
  9
$SHADEDGE
 70
     3
  9
$SHADEDIF
 70
    70
  9
$TILEMODE
 70
     1
  9
$MAXACTVP
 70
    64
  9
$PINSBASE
 10
0.0
 20
0.0
 30
0.0
  9
$PLIMCHECK
 70
     0
  9
$PEXTMIN
 10
1.0000000000E+20
 20
1.0000000000E+20
 30
1.0000000000E+20
  9
$PEXTMAX
 10
-1.0000000000E+20
 20
-1.0000000000E+20
 30
-1.0000000000E+20
  9
$PLIMMIN
 10
0.0
 20
0.0
  9
$PLIMMAX
 10
420.0
 20
297.0
  9
$UNITMODE
 70
     0
  9
$VISRETAIN
 70
     1
  9
$PLINEGEN
 70
     0
  9
$PSLTSCALE
 70
     1
  9
$TREEDEPTH
 70
  3020
  9
$CMLSTYLE
  2
Standard
  9
$CMLJUST
 70
     0
  9
$CMLSCALE
 40
20.0
  9
$PROXYGRAPHICS
 70
     1
  9
$MEASUREMENT
 70
     1
  9
$CELWEIGHT
370
    -1
  9
$ENDCAPS
280
     0
  9
$JOINSTYLE
280
     0
  9
$LWDISPLAY
290
     1
  9
$INSUNITS
 70
     4
  9
$HYPERLINKBASE
  1

  9
$STYLESHEET
  1

  9
$XEDIT
290
     1
  9
$CEPSNTYPE
380
     0
  9
$PSTYLEMODE
290
     1
  9
$FINGERPRINTGUID
  2
{05c46e7b-b123-466e-aa04-8f13f71ba548}
  9
$VERSIONGUID
  2
{FAEB1C32-E019-11D5-929B-00C0DF256EC4}
  9
$EXTNAMES
290
     1
  9
$PSVPSCALE
 40
0.0
  9
$OLESTARTUP
290
     0
  0
ENDSEC
  0
SECTION
  2
CLASSES
  0
CLASS
  1
ACDBDICTIONARYWDFLT
  2
AcDbDictionaryWithDefault
  3
ObjectDBX Classes
 90
        0
280
     0
281
     0
  0
CLASS
  1
VISUALSTYLE
  2
AcDbVisualStyle
  3
ObjectDBX Classes
 90
     4095
280
     0
281
     0
  0
CLASS
  1
MATERIAL
  2
AcDbMaterial
  3
ObjectDBX Classes
 90
     1153
280
     0
281
     0
  0
CLASS
  1
SCALE
  2
AcDbScale
  3
ObjectDBX Classes
 90
     1153
280
     0
281
     0
  0
CLASS
  1
TABLESTYLE
  2
AcDbTableStyle
  3
ObjectDBX Classes
 90
     4095
280
     0
281
     0
  0
CLASS
  1
MLEADERSTYLE
  2
AcDbMLeaderStyle
  3
ACDB_MLEADERSTYLE_CLASS
 90
     4095
280
     0
281
     0
  0
CLASS
  1
SUN
  2
AcDbSun
  3
SCENEOE
 90
     1153
280
     0
281
     0
  0
CLASS
  1
ACDBPLACEHOLDER
  2
AcDbPlaceHolder
  3
ObjectDBX Classes
 90
        0
280
     0
281
     0
  0
CLASS
  1
LAYOUT
  2
AcDbLayout
  3
ObjectDBX Classes
 90
        0
280
     0
281
     0
  0
ENDSEC
  0
SECTION
  2
TABLES
  0
TABLE
  2
VPORT
  5
8
330
0
100
AcDbSymbolTable
 70
     1
  0
VPORT
  5
29
330
8
100
AcDbSymbolTableRecord
100
AcDbViewportTableRecord
  2
*Active
 70
     0
 10
0.0
 20
0.0
 11
1.0
 21
1.0
 12
139.7
 22
107.95
 13
0.0
 23
0.0
 14
10.0
 24
10.0
 15
10.0
 25
10.0
 16
0.0
 26
0.0
 36
1.0
 17
0.0
 27
0.0
 37
0.0
 40
215.9
 41
1.2941176471
 42
50.0
 43
0.0
 44
0.0
 50
0.0
 51
0.0
 71
     0
 72
  2000
 73
     1
 74
     3
 75
     0
 76
     0
 77
     0
 78
     0
281
     0
 65
     1
110
0.0
120
0.0
130
0.0
111
1.0
121
0.0
131
0.0
112
0.0
122
1.0
132
0.0
 79
     0
146
0.0
  0
ENDTAB
  0
TABLE
  2
LTYPE
  5
5
330
0
100
AcDbSymbolTable
 70
     6
  0
LTYPE
  5
14
330
5
100
AcDbSymbolTableRecord
100
AcDbLinetypeTableRecord
  2
ByBlock
 70
     0
  3

 72
    65
 73
     0
 40
0.0
  0
LTYPE
  5
15
330
5
100
AcDbSymbolTableRecord
100
AcDbLinetypeTableRecord
  2
ByLayer
 70
     0
  3

 72
    65
 73
     0
 40
0.0
  0
LTYPE
  5
16
330
5
100
AcDbSymbolTableRecord
100
AcDbLinetypeTableRecord
  2
Continuous
 70
     0
  3
Solid line
 72
    65
 73
     0
 40
0.0
  0
LTYPE
  5
6E
330
5
100
AcDbSymbolTableRecord
100
AcDbLinetypeTableRecord
  2
HIDDEN
 70
     0
  3
Hidden __ __ __ __ __ __ __ __ __ __ __ __ __ __
 72
    65
 73
     2
 40
1.905
 49
1.27
 74
     0
 49
-0.635
 74
     0
  0
LTYPE
  5
6F
330
5
100
AcDbSymbolTableRecord
100
AcDbLinetypeTableRecord
  2
PHANTOM
 70
     0
  3
Phantom ______  __  __  ______  __  __  ______
 72
    65
 73
     6
 40
12.7
 49
6.35
 74
     0
 49
-1.27
 74
     0
 49
1.27
 74
     0
 49
-1.27
 74
     0
 49
1.27
 74
     0
 49
-1.27
 74
     0
  0
LTYPE
  5
70
330
5
100
AcDbSymbolTableRecord
100
AcDbLinetypeTableRecord
  2
CENTER
 70
     0
  3
Center ____ _ ____ _ ____ _ ____ _ ____ _ ____
 72
    65
 73
     4
 40
10.16
 49
6.35
 74
     0
 49
-1.27
 74
     0
 49
1.27
 74
     0
 49
-1.27
 74
     0
  0
LTYPE
  5
71
330
5
100
AcDbSymbolTableRecord
100
AcDbLinetypeTableRecord
  2
CENTERX2
 70
     0
  3
Center (2x) ________  __  ________  __  _____
 72
    65
 73
     4
 40
20.32
 49
12.7
 74
     0
 49
-2.54
 74
     0
 49
2.54
 74
     0
 49
-2.54
 74
     0
  0
LTYPE
  5
72
330
5
100
AcDbSymbolTableRecord
100
AcDbLinetypeTableRecord
  2
DOT2
 70
     0
  3
Dot (.5x) ........................................
 72
    65
 73
     2
 40
0.635
 49
0.0
 74
     0
 49
-0.635
 74
     0
  0
ENDTAB
  0
TABLE
  2
LAYER
  5
2
330
0
100
AcDbSymbolTable
 70
    17
  0
LAYER
  5
10
330
2
100
AcDbSymbolTableRecord
100
AcDbLayerTableRecord
  2
0
 70
     0
 62
     7
  6
Continuous
370
    -3
390
F
  0
LAYER
  5
73
330
2
100
AcDbSymbolTableRecord
100
AcDbLayerTableRecord
  2
FORMAT
 70
     0
 62
     7
  6
Continuous
370
    -3
390
F
  0
LAYER
  5
74
330
2
100
AcDbSymbolTableRecord
100
AcDbLayerTableRecord
  2
YARDIMCI_GEOMETRI
 70
     0
 62
    -6
  6
Continuous
290
     0
370
    -3
390
F
  0
LAYER
  5
75
330
2
100
AcDbSymbolTableRecord
100
AcDbLayerTableRecord
  2
SAYFA_CERCEVESI
 70
     0
 62
     7
  6
Continuous
370
    25
390
F
  0
LAYER
  5
76
330
2
100
AcDbSymbolTableRecord
100
AcDbLayerTableRecord
  2
ANTET
 70
     0
 62
     7
  6
Continuous
370
    -3
390
F
  0
LAYER
  5
77
330
2
100
AcDbSymbolTableRecord
100
AcDbLayerTableRecord
  2
OLCU
 70
     0
 62
   150
  6
Continuous
370
    -3
390
F
  0
LAYER
  5
78
330
2
100
AcDbSymbolTableRecord
100
AcDbLayerTableRecord
  2
METIN
 70
     0
 62
    96
  6
Continuous
370
    -3
390
F
  0
LAYER
  5
79
330
2
100
AcDbSymbolTableRecord
100
AcDbLayerTableRecord
  2
BALON
 70
     0
 62
     5
  6
Continuous
370
    -3
390
F
  0
LAYER
  5
7A
330
2
100
AcDbSymbolTableRecord
100
AcDbLayerTableRecord
  2
VURGU
 70
     0
 62
     7
  6
Continuous
370
    -3
390
F
  0
LAYER
  5
7B
330
2
100
AcDbSymbolTableRecord
100
AcDbLayerTableRecord
  2
SILIK
 70
     0
 62
     7
  6
Continuous
370
    -3
390
F
  0
LAYER
  5
7C
330
2
100
AcDbSymbolTableRecord
100
AcDbLayerTableRecord
  2
MODEL
 70
     0
 62
     7
  6
Continuous
370
    -3
390
F
  0
LAYER
  5
7D
330
2
100
AcDbSymbolTableRecord
100
AcDbLayerTableRecord
  2
DETAYLANDıRMA
 70
     0
 62
   190
  6
Continuous
370
    -3
390
F
  0
LAYER
  5
7E
330
2
100
AcDbSymbolTableRecord
100
AcDbLayerTableRecord
  2
TOLERANS
 70
     0
 62
   230
  6
Continuous
370
    -3
390
F
  0
LAYER
  5
7F
330
2
100
AcDbSymbolTableRecord
100
AcDbLayerTableRecord
  2
MERKEZ_CIZGILERI
 70
     0
 62
    30
  6
Continuous
370
    -3
390
F
  0
LAYER
  5
80
330
2
100
AcDbSymbolTableRecord
100
AcDbLayerTableRecord
  2
KESIT-DETAY_CIZGILERI
 70
     0
 62
     7
  6
Continuous
370
    -3
390
F
  0
LAYER
  5
81
330
2
100
AcDbSymbolTableRecord
100
AcDbLayerTableRecord
  2
\U+041E\U+0421\U+0415\U+0412\U+042B\U+0415
 70
     0
 62
     7
  6
Continuous
370
    -3
390
F
  0
LAYER
  5
82
330
2
100
AcDbSymbolTableRecord
100
AcDbLayerTableRecord
  2
\U+0412\U+041E\U+0414\U+042F\U+041D\U+042B\U+0415_\U+0417\U+041D\U+0410\U+041A\U+0418
 70
     0
 62
    11
  6
Continuous
370
    -3
390
F
  0
ENDTAB
  0
TABLE
  2
STYLE
  5
3
330
0
100
AcDbSymbolTable
 70
     1
  0
STYLE
  5
11
330
3
100
AcDbSymbolTableRecord
100
AcDbTextStyleTableRecord
  2
Standard
 70
     0
 40
0.0
 41
1.0
 50
0.0
 71
     0
 42
3.5
  3
txt
  4

  0
ENDTAB
  0
TABLE
  2
VIEW
  5
6
330
0
100
AcDbSymbolTable
 70
     0
  0
ENDTAB
  0
TABLE
  2
UCS
  5
7
330
0
100
AcDbSymbolTable
 70
     0
  0
ENDTAB
  0
TABLE
  2
APPID
  5
9
330
0
100
AcDbSymbolTable
 70
     1
  0
APPID
  5
12
330
9
100
AcDbSymbolTableRecord
100
AcDbRegAppTableRecord
  2
ACAD
 70
     0
  0
ENDTAB
  0
TABLE
  2
DIMSTYLE
  5
A
330
0
100
AcDbSymbolTable
 70
     1
100
AcDbDimStyleTable
  0
DIMSTYLE
105
27
330
A
100
AcDbSymbolTableRecord
100
AcDbDimStyleTableRecord
  2
ISO-25
 70
     0
 41
2.5
 42
0.625
 43
3.75
 44
1.25
 73
     0
 74
     0
 77
     1
 78
     8
140
2.5
141
2.5
143
0.0393700787
147
0.625
171
     3
172
     1
178
     0
271
     2
272
     2
274
     3
278
    44
283
     0
284
     8
340
11
  0
ENDTAB
  0
TABLE
  2
BLOCK_RECORD
  5
1
330
0
100
AcDbSymbolTable
 70
     3
  0
BLOCK_RECORD
  5
1F
330
1
100
AcDbSymbolTableRecord
100
AcDbBlockTableRecord
  2
*Model_Space
340
22
  0
BLOCK_RECORD
  5
1B
330
1
100
AcDbSymbolTableRecord
100
AcDbBlockTableRecord
  2
*Paper_Space
340
1E
  0
BLOCK_RECORD
  5
23
330
1
100
AcDbSymbolTableRecord
100
AcDbBlockTableRecord
  2
*Paper_Space0
340
26
  0
BLOCK_RECORD
  5
AA
330
1
100
AcDbSymbolTableRecord
100
AcDbBlockTableRecord
  2
SW_CENTERMARKSYMBOL_0
340
0
102
{BLKREFS
331
B5
102
}
  0
BLOCK_RECORD
  5
C5
330
1
100
AcDbSymbolTableRecord
100
AcDbBlockTableRecord
  2
SW_CENTERMARKSYMBOL_1
340
0
102
{BLKREFS
331
D0
102
}
  0
ENDTAB
  0
ENDSEC
  0
SECTION
  2
BLOCKS
  0
BLOCK
  5
20
330
1F
100
AcDbEntity
  8
0
100
AcDbBlockBegin
  2
*Model_Space
 70
     0
 10
0.0
 20
0.0
 30
0.0
  3
*Model_Space
  1

  0
ENDBLK
  5
21
330
1F
100
AcDbEntity
  8
0
100
AcDbBlockEnd
  0
BLOCK
  5
1C
330
1B
100
AcDbEntity
 67
     1
  8
0
100
AcDbBlockBegin
  2
*Paper_Space
 70
     0
 10
0.0
 20
0.0
 30
0.0
  3
*Paper_Space
  1

  0
ENDBLK
  5
1D
330
1B
100
AcDbEntity
 67
     1
  8
0
100
AcDbBlockEnd
  0
BLOCK
  5
24
330
23
100
AcDbEntity
  8
0
100
AcDbBlockBegin
  2
*Paper_Space0
 70
     0
 10
0.0
 20
0.0
 30
0.0
  3
*Paper_Space0
  1

  0
ENDBLK
  5
25
330
23
100
AcDbEntity
  8
0
100
AcDbBlockEnd
  0
BLOCK
  5
AB
330
AA
100
AcDbEntity
  8
0
100
AcDbBlockBegin
  2
SW_CENTERMARKSYMBOL_0
 70
     0
 10
0.0
 20
0.0
 30
0.0
  3
SW_CENTERMARKSYMBOL_0
  1

  0
LINE
  5
AD
330
AA
100
AcDbEntity
  8
FORMAT
 62
     0
100
AcDbLine
 10
0.0
 20
0.0
 30
0.0
 11
0.0
 21
2.5
 31
0.0
  0
LINE
  5
AE
330
AA
100
AcDbEntity
  8
FORMAT
 62
     0
100
AcDbLine
 10
0.0
 20
0.0
 30
0.0
 11
-2.5
 21
0.0
 31
0.0
  0
LINE
  5
AF
330
AA
100
AcDbEntity
  8
FORMAT
 62
     0
100
AcDbLine
 10
0.0
 20
0.0
 30
0.0
 11
0.0
 21
-2.5
 31
0.0
  0
LINE
  5
B0
330
AA
100
AcDbEntity
  8
FORMAT
 62
     0
100
AcDbLine
 10
0.0
 20
0.0
 30
0.0
 11
2.5
 21
0.0
 31
0.0
  0
LINE
  5
B1
330
AA
100
AcDbEntity
  8
FORMAT
 62
     0
100
AcDbLine
 10
0.0
 20
5.0
 30
0.0
 11
0.0
 21
227.5
 31
0.0
  0
LINE
  5
B2
330
AA
100
AcDbEntity
  8
FORMAT
 62
     0
100
AcDbLine
 10
-5.0
 20
0.0
 30
0.0
 11
-227.5
 21
0.0
 31
0.0
  0
LINE
  5
B3
330
AA
100
AcDbEntity
  8
FORMAT
 62
     0
100
AcDbLine
 10
0.0
 20
-5.0
 30
0.0
 11
0.0
 21
-227.5
 31
0.0
  0
LINE
  5
B4
330
AA
100
AcDbEntity
  8
FORMAT
 62
     0
100
AcDbLine
 10
5.0
 20
0.0
 30
0.0
 11
227.5
 21
0.0
 31
0.0
  0
ENDBLK
  5
AC
330
AA
100
AcDbEntity
  8
0
100
AcDbBlockEnd
  0
BLOCK
  5
C6
330
C5
100
AcDbEntity
  8
0
100
AcDbBlockBegin
  2
SW_CENTERMARKSYMBOL_1
 70
     0
 10
0.0
 20
0.0
 30
0.0
  3
SW_CENTERMARKSYMBOL_1
  1

  0
LINE
  5
C8
330
C5
100
AcDbEntity
  8
FORMAT
 62
     0
100
AcDbLine
 10
0.0
 20
0.0
 30
0.0
 11
0.0
 21
2.5
 31
0.0
  0
LINE
  5
C9
330
C5
100
AcDbEntity
  8
FORMAT
 62
     0
100
AcDbLine
 10
0.0
 20
0.0
 30
0.0
 11
-2.5
 21
0.0
 31
0.0
  0
LINE
  5
CA
330
C5
100
AcDbEntity
  8
FORMAT
 62
     0
100
AcDbLine
 10
0.0
 20
0.0
 30
0.0
 11
0.0
 21
-2.5
 31
0.0
  0
LINE
  5
CB
330
C5
100
AcDbEntity
  8
FORMAT
 62
     0
100
AcDbLine
 10
0.0
 20
0.0
 30
0.0
 11
2.5
 21
0.0
 31
0.0
  0
LINE
  5
CC
330
C5
100
AcDbEntity
  8
FORMAT
 62
     0
100
AcDbLine
 10
0.0
 20
5.0
 30
0.0
 11
0.0
 21
227.5
 31
0.0
  0
LINE
  5
CD
330
C5
100
AcDbEntity
  8
FORMAT
 62
     0
100
AcDbLine
 10
-5.0
 20
0.0
 30
0.0
 11
-227.5
 21
0.0
 31
0.0
  0
LINE
  5
CE
330
C5
100
AcDbEntity
  8
FORMAT
 62
     0
100
AcDbLine
 10
0.0
 20
-5.0
 30
0.0
 11
0.0
 21
-227.5
 31
0.0
  0
LINE
  5
CF
330
C5
100
AcDbEntity
  8
FORMAT
 62
     0
100
AcDbLine
 10
5.0
 20
0.0
 30
0.0
 11
227.5
 21
0.0
 31
0.0
  0
ENDBLK
  5
C7
330
C5
100
AcDbEntity
  8
0
100
AcDbBlockEnd
  0
ENDSEC
  0
SECTION
  2
ENTITIES
  0
LINE
  5
83
330
1F
100
AcDbEntity
  8
0
  6
Continuous
 62
     7
370
    25
100
AcDbLine
 10
217.6414035644
 20
1548.5760592618
 30
0.0
 11
217.6414035644
 21
1818.5760592618
 31
0.0
  0
LINE
  5
84
330
1F
100
AcDbEntity
  8
0
  6
Continuous
 62
     7
370
    25
100
AcDbLine
 10
217.6414035644
 20
828.5760592618
 30
0.0
 11
217.6414035644
 21
1098.5760592618
 31
0.0
  0
LINE
  5
85
330
1F
100
AcDbEntity
  8
0
  6
Continuous
 62
     7
370
    25
100
AcDbLine
 10
-232.3585964356
 20
1818.5760592618
 30
0.0
 11
-232.3585964356
 21
828.5760592618
 31
0.0
  0
LINE
  5
86
330
1F
100
AcDbEntity
  8
0
  6
Continuous
 62
     7
370
    25
100
AcDbLine
 10
217.6414035644
 20
1098.5760592618
 30
0.0
 11
487.6414035644
 21
1098.5760592618
 31
0.0
  0
LINE
  5
87
330
1F
100
AcDbEntity
  8
0
  6
Continuous
 62
     7
370
    25
100
AcDbLine
 10
487.6414035644
 20
1548.5760592618
 30
0.0
 11
217.6414035644
 21
1548.5760592618
 31
0.0
  0
LINE
  5
88
330
1F
100
AcDbEntity
  8
0
  6
Continuous
 62
     7
370
    25
100
AcDbLine
 10
217.6414035644
 20
1548.5760592618
 30
0.0
 11
-7.3585964356
 21
1323.5760592618
 31
0.0
  0
LINE
  5
89
330
1F
100
AcDbEntity
  8
0
  6
Continuous
 62
     7
370
    25
100
AcDbLine
 10
-7.3585964356
 20
1323.5760592618
 30
0.0
 11
217.6414035644
 21
1098.5760592618
 31
0.0
  0
LINE
  5
8A
330
1F
100
AcDbEntity
  8
0
  6
Continuous
 62
     7
370
    25
100
AcDbLine
 10
-232.3585964356
 20
1818.5760592618
 30
0.0
 11
217.6414035644
 21
1818.5760592618
 31
0.0
  0
LINE
  5
8B
330
1F
100
AcDbEntity
  8
0
  6
Continuous
 62
     7
370
    25
100
AcDbLine
 10
-232.3585964356
 20
828.5760592618
 30
0.0
 11
217.6414035644
 21
828.5760592618
 31
0.0
  0
LINE
  5
8C
330
1F
100
AcDbEntity
  8
0
  6
Continuous
 62
     7
370
    25
100
AcDbLine
 10
487.6414035644
 20
1548.5760592618
 30
0.0
 11
487.6414035644
 21
1098.5760592618
 31
0.0
  0
LINE
  5
8D
330
1F
100
AcDbEntity
  8
0
  6
Continuous
 62
     7
370
    25
100
AcDbLine
 10
1519.5466457112
 20
-118.5517129356
 30
0.0
 11
2014.5466457112
 21
-118.5517129356
 31
0.0
  0
LINE
  5
8E
330
1F
100
AcDbEntity
  8
0
  6
Continuous
 62
     7
370
    25
100
AcDbLine
 10
1024.5466457112
 20
-118.5517129356
 30
0.0
 11
1519.5466457112
 21
-118.5517129356
 31
0.0
  0
LINE
  5
8F
330
1F
100
AcDbEntity
  8
0
  6
Continuous
 62
     7
370
    25
100
AcDbLine
 10
1519.5466457112
 20
331.4482870644
 30
0.0
 11
1024.5466457112
 21
331.4482870644
 31
0.0
  0
LINE
  5
90
330
1F
100
AcDbEntity
  8
0
  6
Continuous
 62
     7
370
    25
100
AcDbLine
 10
2014.5466457112
 20
331.4482870644
 30
0.0
 11
1519.5466457112
 21
331.4482870644
 31
0.0
  0
LINE
  5
91
330
1F
100
AcDbEntity
  8
0
  6
Continuous
 62
     7
370
    25
100
AcDbLine
 10
2014.5466457112
 20
331.4482870644
 30
0.0
 11
2014.5466457112
 21
-118.5517129356
 31
0.0
  0
LINE
  5
92
330
1F
100
AcDbEntity
  8
0
  6
Continuous
 62
     7
370
    25
100
AcDbLine
 10
1024.5466457112
 20
331.4482870644
 30
0.0
 11
1024.5466457112
 21
-118.5517129356
 31
0.0
  0
LINE
  5
93
330
1F
100
AcDbEntity
  8
0
  6
Continuous
 62
     7
370
    25
100
AcDbLine
 10
1689.5238643851
 20
-1229.0599302758
 30
0.0
 11
1927.0508636509
 21
-1091.9385123111
 31
0.0
  0
LINE
  5
94
330
1F
100
AcDbEntity
  8
0
  6
Continuous
 62
     7
370
    25
100
AcDbLine
 10
1702.0691488077
 20
-702.2165242398
 30
0.0
 11
1464.542149542
 21
-839.3379422045
 31
0.0
  0
LINE
  5
95
330
1F
100
AcDbEntity
  8
0
  6
Continuous
 62
     7
370
    25
100
AcDbLine
 10
1464.542149542
 20
-839.3379422045
 30
0.0
 11
1227.0151502762
 21
-702.2165242398
 31
0.0
  0
LINE
  5
96
330
1F
100
AcDbEntity
  8
0
  6
Continuous
 62
     7
370
    25
100
AcDbLine
 10
1927.0508636509
 20
-1106.3385395921
 30
0.0
 11
1914.578722828
 21
-1099.1385259516
 31
0.0
  0
LINE
  5
97
330
1F
100
AcDbEntity
  8
0
  6
Continuous
 62
     7
370
    25
100
AcDbLine
 10
1002.0334354331
 20
-1091.9385123111
 30
0.0
 11
1702.0691488078
 21
-1496.0605276634
 31
0.0
  0
LWPOLYLINE
  5
98
330
1F
100
AcDbEntity
  8
0
  6
Continuous
 62
     7
370
    25
100
AcDbPolyline
 90
      150
 70
   128
 43
0.0
 10
1954.7792809386
 20
-978.0243825627
 10
1954.6546285619
 20
-971.1264347492
 10
1954.2808930592
 20
-964.0968306645
 10
1953.6587389185
 20
-956.9480686881
 10
1952.7892723072
 20
-949.6928590579
 10
1951.6740391052
 20
-942.3441012719
 10
1950.3150221565
 20
-934.9148611532
 10
1948.7146377436
 20
-927.4183476197
 10
1946.8757312915
 20
-919.8678891989
 10
1944.8015723089
 20
-912.2769103302
 10
1942.4958485747
 20
-904.6589074972
 10
1939.9626595816
 20
-897.0274252308
 10
1937.2065092472
 20
-889.3960320279
 10
1934.2322979061
 20
-881.7782962274
 10
1931.0453135976
 20
-874.1877618852
 10
1927.6512226635
 20
-866.6379246947
 10
1924.0560596736
 20
-859.1422079907
 10
1920.2662166966
 20
-851.713938884
 10
1916.2884319348
 20
-844.366324566
 10
1912.1297777446
 20
-837.1124288268
 10
1907.7976480612
 20
-829.9651488284
 10
1903.2997452531
 20
-822.9371921737
 10
1898.6440664275
 20
-816.0410543133
 10
1893.8388892113
 20
-809.2889963284
 10
1888.8927570342
 20
-802.693023132
 10
1883.8144639389
 20
-796.2648621235
 10
1878.6130389451
 20
-790.0159423387
 10
1873.2977299966
 20
-783.9573741289
 10
1867.8779875187
 20
-778.0999294074
 10
1862.3634476158
 20
-772.4540224969
 10
1856.7639149387
 20
-767.0296916141
 10
1851.089345252
 20
-761.8365810213
 10
1845.3498277336
 20
-756.8839238795
 10
1839.5555670362
 20
-752.1805258325
 10
1833.7168651438
 20
-747.7347493504
 10
1827.8441030554
 20
-743.5544988614
 10
1821.9477223275
 20
-739.6472066984
 10
1816.0382065101
 20
-736.0198198843
 10
1810.1260625065
 20
-732.6787877805
 10
1804.221801893
 20
-729.63005062
 10
1798.3359222296
 20
-726.8790289464
 10
1792.4788883955
 20
-724.4306139758
 10
1786.661113983
 20
-722.2891589006
 10
1780.8929427829
 20
-720.4584711499
 10
1775.1846303929
 20
-718.9418056195
 10
1769.5463259843
 20
-717.7418588856
 10
1763.9880542565
 20
-716.8607644095
 10
1758.5196976137
 20
-716.3000887452
 10
1753.1509785946
 20
-716.0608287535
 10
1747.8914425856
 20
-716.1434098299
 10
1742.7504408499
 20
-716.5476851483
 10
1737.7371139008
 20
-717.2729359219
 10
1732.8603752508
 20
-718.3178726813
 10
1728.1288955632
 20
-719.6806375671
 10
1723.5510872363
 20
-721.3588076331
 10
1719.1350894461
 20
-723.3493991541
 10
1714.8887536756
 20
-725.648872931
 10
1710.8196297549
 20
-728.2531405834
 10
1706.9349524377
 20
-731.1575718184
 10
1703.2416285386
 20
-734.3570026633
 10
1699.7462246527
 20
-737.8457446468
 10
1696.4549554806
 20
-741.617594913
 10
1693.3736727787
 20
-745.6658472497
 10
1690.5078549551
 20
-749.983304012
 10
1687.8625973296
 20
-754.5622889194
 10
1685.4426030735
 20
-759.3946607038
 10
1683.2521748483
 20
-764.4718275844
 10
1681.2952071554
 20
-769.784762544
 10
1679.5751794122
 20
-775.3240193779
 10
1678.0951497649
 20
-781.0797494897
 10
1676.8577496525
 20
-787.0417194013
 10
1675.8651791271
 20
-793.1993289478
 10
1675.1192029429
 20
-799.541630124
 10
1674.6211474183
 20
-806.0573465501
 10
1674.3718980779
 20
-812.7348935198
 10
1674.3718980779
 20
-819.5623985985
 10
1674.6211474183
 20
-826.5277227312
 10
1675.1192029429
 20
-833.6184818257
 10
1675.8651791271
 20
-840.8220687713
 10
1676.8577496525
 20
-848.1256758532
 10
1678.0951497649
 20
-855.5163175245
 10
1679.5751794122
 20
-862.980853494
 10
1681.2952071554
 20
-870.5060120892
 10
1683.2521748483
 20
-878.0784138528
 10
1685.4426030735
 20
-885.6845953307
 10
1687.8625973296
 20
-893.3110330098
 10
1690.5078549551
 20
-900.9441673622
 10
1693.3736727787
 20
-908.5704269537
 10
1696.4549554806
 20
-916.176252573
 10
1699.7462246527
 20
-923.7481213397
 10
1703.2416285386
 20
-931.2725707474
 10
1706.9349524377
 20
-938.7362225997
 10
1710.8196297549
 20
-946.1258067959
 10
1714.8887536756
 20
-953.4281849251
 10
1719.1350894461
 20
-960.6303736254
 10
1723.5510872363
 20
-967.7195676681
 10
1728.1288955632
 20
-974.683162725
 10
1732.8603752508
 20
-981.508777778
 10
1737.7371139008
 20
-988.1842771328
 10
1742.7504408499
 20
-994.6977919952
 10
1747.8914425856
 20
-1001.0377415733
 10
1753.1509785946
 20
-1007.1928536682
 10
1758.5196976137
 20
-1013.1521847152
 10
1763.9880542565
 20
-1018.9051392412
 10
1769.5463259843
 20
-1024.441488703
 10
1775.1846303929
 20
-1029.7513896733
 10
1780.8929427829
 20
-1034.8254013419
 10
1786.661113983
 20
-1039.6545023012
 10
1792.4788883955
 20
-1044.230106586
 10
1798.3359222296
 20
-1048.5440789388
 10
1804.221801893
 20
-1052.5887492742
 10
1810.1260625065
 20
-1056.356926316
 10
1816.0382065101
 20
-1059.8419103829
 10
1821.9477223275
 20
-1063.0375053003
 10
1827.8441030554
 20
-1065.9380294172
 10
1833.7168651438
 20
-1068.5383257076
 10
1839.5555670362
 20
-1070.8337709394
 10
1845.3498277336
 20
-1072.8202838949
 10
1851.089345252
 20
-1074.4943326265
 10
1856.7639149387
 20
-1075.8529407366
 10
1862.3634476158
 20
-1076.8936926697
 10
1867.8779875187
 20
-1077.6147380068
 10
1873.2977299966
 20
-1078.0147947555
 10
1878.6130389451
 20
-1078.0931516295
 10
1883.8144639389
 20
-1077.8496693133
 10
1888.8927570342
 20
-1077.2847807094
 10
1893.8388892113
 20
-1076.3994901692
 10
1898.6440664275
 20
-1075.195371707
 10
1903.2997452531
 20
-1073.6745662015
 10
1907.7976480612
 20
-1071.8397775893
 10
1912.1297777446
 20
-1069.6942680576
 10
1916.2884319348
 20
-1067.2418522442
 10
1920.2662166966
 20
-1064.4868904547
 10
1924.0560596736
 20
-1061.4342809108
 10
1927.6512226635
 20
-1058.0894510408
 10
1931.0453135976
 20
-1054.4583478301
 10
1934.2322979061
 20
-1050.5474272478
 10
1937.2065092472
 20
-1046.363642768
 10
1939.9626595816
 20
-1041.9144330066
 10
1942.4958485747
 20
-1037.2077084964
 10
1944.8015723089
 20
-1032.2518376218
 10
1946.8757312915
 20
-1027.0556317403
 10
1948.7146377436
 20
-1021.6283295163
 10
1950.3150221565
 20
-1015.9795804952
 10
1951.6740391052
 20
-1010.1194279466
 10
1952.7892723072
 20
-1004.0582910078
 10
1953.6587389185
 20
-997.8069461591
 10
1954.2808930592
 20
-991.3765080636
 10
1954.6546285619
 20
-984.7784098055
 10
1954.7792809386
 20
-978.0243825627
  0
LWPOLYLINE
  5
99
330
1F
100
AcDbEntity
  8
0
  6
Continuous
 62
     7
370
    25
100
AcDbPolyline
 90
      160
 70
   128
 43
0.0
 10
1973.6590319963
 20
-988.9234308555
 10
1973.534824875
 20
-981.5935077183
 10
1973.1623974459
 20
-974.1316228963
 10
1972.5423312101
 20
-966.5494272367
 10
1971.6755943275
 20
-958.8587594381
 10
1970.5635401048
 20
-951.0716275653
 10
1969.2079048827
 20
-943.2001903003
 10
1967.6108053246
 20
-935.2567379581
 10
1965.774735112
 20
-927.2536732965
 10
1963.7025610506
 20
-919.2034921509
 10
1961.397518594
 20
-911.1187639236
 10
1958.8632067926
 20
-903.0121119581
 10
1956.1035826733
 20
-894.896193829
 10
1953.1229550616
 20
-886.783681579
 10
1949.9259778537
 20
-878.6872419332
 10
1946.51764275
 20
-870.6195165207
 10
1942.9032714612
 20
-862.5931021373
 10
1939.0885073991
 20
-854.6205310761
 10
1935.0793068648
 20
-846.7142515605
 10
1930.881929749
 20
-838.8866083074
 10
1926.5029297579
 20
-831.1498232525
 10
1921.9491441801
 20
-823.5159764673
 10
1917.2276832113
 20
-815.9969872974
 10
1912.3459188523
 20
-808.6045957517
 10
1907.3114733986
 20
-801.3503441722
 10
1902.1322075391
 20
-794.2455592116
 10
1896.8162080828
 20
-787.3013341481
 10
1891.3717753317
 20
-780.528511565
 10
1885.8074101212
 20
-773.9376664206
 10
1880.1318005471
 20
-767.5390895373
 10
1874.3538084
 20
-761.3427715334
 10
1868.4824553288
 20
-755.3583872238
 10
1862.5269087543
 20
-749.5952805142
 10
1856.4964675556
 20
-744.0624498118
 10
1850.4005475506
 20
-738.7685339748
 10
1844.2486667949
 20
-733.7217988243
 10
1838.0504307199
 20
-728.9301242383
 10
1831.8155171356
 20
-724.4009918477
 10
1825.5536611194
 20
-720.1414733553
 10
1819.2746398161
 20
-716.1582194934
 10
1812.9882571721
 20
-712.4574496402
 10
1806.7043286277
 20
-709.0449421084
 10
1800.4326657913
 20
-705.9260251235
 10
1794.18306112
 20
-703.105568504
 10
1787.9652726296
 20
-700.5879760583
 10
1781.7890086588
 20
-698.3771787081
 10
1775.6639127105
 20
-696.476628351
 10
1769.5995483949
 20
-694.8892924707
 10
1763.6053844972
 20
-693.6176495038
 10
1757.6907801926
 20
-692.6636849698
 10
1751.8649704337
 20
-692.0288883712
 10
1746.1370515308
 20
-691.7142508675
 10
1740.5159669494
 20
-691.7202637277
 10
1735.0104933458
 20
-692.0469175635
 10
1729.6292268635
 20
-692.6937023437
 10
1724.3805697112
 20
-693.6596081907
 10
1719.2727170441
 20
-694.9431269571
 10
1714.3136441678
 20
-696.5422545808
 10
1709.5110940859
 20
-698.4544942138
 10
1704.8725654103
 20
-700.6768601209
 10
1700.4053006528
 20
-703.2058823415
 10
1696.1162749171
 20
-706.0376121076
 10
1692.0121850077
 20
-709.1676280095
 10
1688.0994389739
 20
-712.5910428988
 10
1684.384146104
 20
-716.3025115195
 10
1680.872107387
 20
-720.2962388539
 10
1677.5688064542
 20
-724.565989171
 10
1674.4794010181
 20
-729.1050957624
 10
1671.6087148185
 20
-733.9064713521
 10
1668.961230091
 20
-738.9626191619
 10
1666.5410805689
 20
-744.2656446174
 10
1664.3520450283
 20
-749.8072676737
 10
1662.3975413883
 20
-755.5788357443
 10
1660.6806213745
 20
-761.5713372108
 10
1659.2039657535
 20
-767.7754154934
 10
1657.9698801478
 20
-774.1813836605
 10
1656.9802914356
 20
-780.7792395531
 10
1656.2367447423
 20
-787.5586814025
 10
1655.7404010276
 20
-794.509123915
 10
1655.4920352735
 20
-801.6197147996
 10
1655.4920352735
 20
-808.8793517129
 10
1655.7404010276
 20
-816.2766995936
 10
1656.2367447423
 20
-823.800208361
 10
1656.9802914356
 20
-831.4381309492
 10
1657.9698801478
 20
-839.1785416489
 10
1659.2039657535
 20
-847.0093547276
 10
1660.6806213745
 20
-854.9183433002
 10
1662.3975413883
 20
-862.89315842
 10
1664.3520450283
 20
-870.9213483597
 10
1666.5410805689
 20
-878.9903780539
 10
1668.961230091
 20
-887.0876486704
 10
1671.6087148185
 20
-895.2005172824
 10
1674.4794010181
 20
-903.3163166087
 10
1677.5688064542
 20
-911.422374792
 10
1680.872107387
 20
-919.5060351846
 10
1684.384146104
 20
-927.5546761105
 10
1688.0994389739
 20
-935.5557305724
 10
1692.0121850077
 20
-943.4967058733
 10
1696.1162749171
 20
-951.3652031231
 10
1700.4053006528
 20
-959.1489365974
 10
1704.8725654103
 20
-966.8357529203
 10
1709.5110940859
 20
-974.4136500405
 10
1714.3136441678
 20
-981.8707959714
 10
1719.2727170441
 20
-989.1955472647
 10
1724.3805697112
 20
-996.3764671909
 10
1729.6292268635
 20
-1003.4023435958
 10
1735.0104933458
 20
-1010.2622064074
 10
1740.5159669494
 20
-1016.9453447644
 10
1746.1370515308
 20
-1023.4413237395
 10
1751.8649704337
 20
-1029.7400006326
 10
1757.6907801926
 20
-1035.8315408075
 10
1763.6053844972
 20
-1041.7064330474
 10
1769.5995483949
 20
-1047.3555044053
 10
1775.6639127105
 20
-1052.7699345269
 10
1781.7890086588
 20
-1057.9412694223
 10
1787.9652726296
 20
-1062.8614346661
 10
1794.18306112
 20
-1067.5227480041
 10
1800.4326657913
 20
-1071.9179313489
 10
1806.7043286277
 20
-1076.0401221436
 10
1812.9882571721
 20
-1079.8828840764
 10
1819.2746398161
 20
-1083.4402171308
 10
1825.5536611194
 20
-1086.7065669536
 10
1831.8155171356
 20
-1089.6768335272
 10
1838.0504307199
 20
-1092.3463791329
 10
1844.2486667949
 20
-1094.7110355922
 10
1850.4005475506
 20
-1096.7671107748
 10
1856.4964675556
 20
-1098.5113943632
 10
1862.5269087543
 20
-1099.9411628657
 10
1868.4824553288
 20
-1101.0541838686
 10
1874.3538084
 20
-1101.8487195217
 10
1880.1318005471
 20
-1102.3235292518
 10
1885.8074101212
 20
-1102.4778716999
 10
1891.3717753317
 20
-1102.3115058787
 10
1896.8162080828
 20
-1101.8246915485
 10
1902.1322075391
 20
-1101.0181888123
 10
1907.3114733986
 20
-1099.8932569282
 10
1912.3459188523
 20
-1098.4516523439
 10
1917.2276832113
 20
-1096.6956259537
 10
1921.9491441801
 20
-1094.6279195846
 10
1926.5029297579
 20
-1092.2517617144
 10
1930.881929749
 20
-1089.5708624317
 10
1935.0793068648
 20
-1086.5894076424
 10
1939.0885073991
 20
-1083.3120525343
 10
1942.9032714612
 20
-1079.7439143083
 10
1946.51764275
 20
-1075.8905641887
 10
1949.9259778537
 20
-1071.7580187243
 10
1953.1229550616
 20
-1067.3527303943
 10
1956.1035826733
 20
-1062.6815775335
 10
1958.8632067926
 20
-1057.7518535925
 10
1961.397518594
 20
-1052.57125575
 10
1963.7025610506
 20
-1047.1478728948
 10
1965.774735112
 20
-1041.4901729952
 10
1967.6108053246
 20
-1035.6069898781
 10
1969.2079048827
 20
-1029.5075094355
 10
1970.5635401048
 20
-1023.2012552821
 10
1971.6755943275
 20
-1016.6980738852
 10
1972.5423312101
 20
-1010.0081191905
 10
1973.1623974459
 20
-1003.1418367681
 10
1973.534824875
 20
-996.109947503
 10
1973.6590319963
 20
-988.9234308555
  0
ELLIPSE
  5
9A
330
1F
100
AcDbEntity
  8
0
  6
Continuous
 62
     7
370
    25
100
AcDbEllipse
 10
1464.542149542
 20
-1099.1385259516
 30
0.0
 11
318.1980515339465
 21
4.547473508864641E-13
 31
0.0
210
0.0
220
0.0
230
1.0
 40
0.5773815452
 41
4.712388980384697
 42
5.49770587972005
  0
LINE
  5
9B
330
1F
100
AcDbEntity
  8
0
  6
Continuous
 62
     7
370
    25
100
AcDbLine
 10
1464.542149542
 20
-839.3379422045
 30
0.0
 11
1464.542149542
 21
-1282.8602086259
 31
0.0
  0
LWPOLYLINE
  5
9C
330
1F
100
AcDbEntity
  8
0
  6
Continuous
 62
     7
370
    25
100
AcDbPolyline
 90
      150
 70
   128
 43
0.0
 10
1254.7435675639
 20
-816.1306539883
 10
1254.6189151872
 20
-809.3766267455
 10
1254.2451796845
 20
-802.7785284874
 10
1253.6230255438
 20
-796.3480903918
 10
1252.7535589325
 20
-790.0967455432
 10
1251.6383257305
 20
-784.0356086044
 10
1250.2793087818
 20
-778.1754560557
 10
1248.6789243689
 20
-772.5267070346
 10
1246.8400179169
 20
-767.0994048107
 10
1244.7658589343
 20
-761.9031989292
 10
1242.4601352001
 20
-756.9473280545
 10
1239.9269462069
 20
-752.2406035443
 10
1237.1707958725
 20
-747.791393783
 10
1234.1965845314
 20
-743.6076093031
 10
1231.0096002229
 20
-739.6966887208
 10
1227.6155092888
 20
-736.0655855102
 10
1224.0203462989
 20
-732.7207556402
 10
1220.2305033219
 20
-729.6681460962
 10
1216.2527185602
 20
-726.9131843068
 10
1212.0940643699
 20
-724.4607684933
 10
1207.7619346865
 20
-722.3152589617
 10
1203.2640318785
 20
-720.4804703495
 10
1198.6083530528
 20
-718.9596648439
 10
1193.8031758366
 20
-717.7555463817
 10
1188.8570436596
 20
-716.8702558416
 10
1183.7787505642
 20
-716.3053672377
 10
1178.5773255704
 20
-716.0618849215
 10
1173.2620166219
 20
-716.1402417955
 10
1167.842274144
 20
-716.5402985442
 10
1162.3277342412
 20
-717.2613438812
 10
1156.728201564
 20
-718.3020958143
 10
1151.0536318773
 20
-719.6607039245
 10
1145.3141143589
 20
-721.3347526561
 10
1139.5198536615
 20
-723.3212656116
 10
1133.6811517691
 20
-725.6167108434
 10
1127.8083896807
 20
-728.2170071337
 10
1121.9120089529
 20
-731.1175312506
 10
1116.0024931354
 20
-734.3131261681
 10
1110.0903491318
 20
-737.798110235
 10
1104.1860885184
 20
-741.5662872768
 10
1098.3002088549
 20
-745.6109576122
 10
1092.4431750208
 20
-749.924929965
 10
1086.6254006083
 20
-754.5005342498
 10
1080.8572294082
 20
-759.3296352091
 10
1075.1489170183
 20
-764.4036468777
 10
1069.5106126096
 20
-769.713547848
 10
1063.9523408818
 20
-775.2498973097
 10
1058.483984239
 20
-781.0028518357
 10
1053.1152652199
 20
-786.9621828828
 10
1047.8557292109
 20
-793.1172949777
 10
1042.7147274752
 20
-799.4572445558
 10
1037.7014005261
 20
-805.9707594181
 10
1032.8246618761
 20
-812.6462587729
 10
1028.0931821885
 20
-819.471873826
 10
1023.5153738616
 20
-826.4354688828
 10
1019.0993760714
 20
-833.5246629255
 10
1014.8530403009
 20
-840.7268516258
 10
1010.7839163802
 20
-848.029229755
 10
1006.899239063
 20
-855.4188139513
 10
1003.2059151639
 20
-862.8824658036
 10
999.710511278
 20
-870.4069152113
 10
996.4192421059
 20
-877.9787839779
 10
993.337959404
 20
-885.5846095972
 10
990.4721415805
 20
-893.2108691887
 10
987.8268839549
 20
-900.8440035412
 10
985.4068896988
 20
-908.4704412203
 10
983.2164614736
 20
-916.0766226982
 10
981.2594937808
 20
-923.6490244617
 10
979.5394660375
 20
-931.174183057
 10
978.0594363903
 20
-938.6387190265
 10
976.8220362778
 20
-946.0293606978
 10
975.8294657524
 20
-953.3329677797
 10
975.0834895682
 20
-960.5365547252
 10
974.5854340436
 20
-967.6273138198
 10
974.3361847032
 20
-974.5926379525
 10
974.3361847032
 20
-981.4201430311
 10
974.5854340436
 20
-988.0976900009
 10
975.0834895682
 20
-994.6134064269
 10
975.8294657524
 20
-1000.9557076032
 10
976.8220362778
 20
-1007.1133171497
 10
978.0594363903
 20
-1013.0752870613
 10
979.5394660375
 20
-1018.8310171731
 10
981.2594937808
 20
-1024.370274007
 10
983.2164614736
 20
-1029.6832089665
 10
985.4068896988
 20
-1034.7603758472
 10
987.8268839549
 20
-1039.5927476316
 10
990.4721415805
 20
-1044.1717325389
 10
993.337959404
 20
-1048.4891893013
 10
996.4192421059
 20
-1052.537441638
 10
999.710511278
 20
-1056.3092919041
 10
1003.2059151639
 20
-1059.7980338877
 10
1006.899239063
 20
-1062.9974647326
 10
1010.7839163802
 20
-1065.9018959676
 10
1014.8530403009
 20
-1068.50616362
 10
1019.0993760714
 20
-1070.8056373969
 10
1023.5153738616
 20
-1072.7962289179
 10
1028.0931821885
 20
-1074.4743989839
 10
1032.8246618761
 20
-1075.8371638697
 10
1037.7014005261
 20
-1076.8821006291
 10
1042.7147274752
 20
-1077.6073514027
 10
1047.8557292109
 20
-1078.0116267211
 10
1053.1152652199
 20
-1078.0942077975
 10
1058.483984239
 20
-1077.8549478057
 10
1063.9523408818
 20
-1077.2942721414
 10
1069.5106126096
 20
-1076.4131776654
 10
1075.1489170183
 20
-1075.2132309314
 10
1080.8572294082
 20
-1073.6965654011
 10
1086.6254006083
 20
-1071.8658776503
 10
1092.4431750208
 20
-1069.7244225751
 10
1098.3002088549
 20
-1067.2760076045
 10
1104.1860885184
 20
-1064.5249859309
 10
1110.0903491318
 20
-1061.4762487705
 10
1116.0024931354
 20
-1058.1352166667
 10
1121.9120089529
 20
-1054.5078298526
 10
1127.8083896807
 20
-1050.6005376896
 10
1133.6811517691
 20
-1046.4202872006
 10
1139.5198536615
 20
-1041.9745107184
 10
1145.3141143589
 20
-1037.2711126714
 10
1151.0536318773
 20
-1032.3184555297
 10
1156.728201564
 20
-1027.1253449368
 10
1162.3277342412
 20
-1021.701014054
 10
1167.842274144
 20
-1016.0551071436
 10
1173.2620166219
 20
-1010.197662422
 10
1178.5773255704
 20
-1004.1390942123
 10
1183.7787505642
 20
-997.8901744275
 10
1188.8570436596
 20
-991.462013419
 10
1193.8031758366
 20
-984.8660402225
 10
1198.6083530528
 20
-978.1139822377
 10
1203.2640318785
 20
-971.2178443772
 10
1207.7619346865
 20
-964.1898877225
 10
1212.0940643699
 20
-957.0426077241
 10
1216.2527185602
 20
-949.788711985
 10
1220.2305033219
 20
-942.441097667
 10
1224.0203462989
 20
-935.0128285603
 10
1227.6155092888
 20
-927.5171118563
 10
1231.0096002229
 20
-919.9672746657
 10
1234.1965845314
 20
-912.3767403236
 10
1237.1707958725
 20
-904.759004523
 10
1239.9269462069
 20
-897.1276113202
 10
1242.4601352001
 20
-889.4961290538
 10
1244.7658589343
 20
-881.8781262207
 10
1246.8400179169
 20
-874.2871473521
 10
1248.6789243689
 20
-866.7366889312
 10
1250.2793087818
 20
-859.2401753977
 10
1251.6383257305
 20
-851.8109352791
 10
1252.7535589325
 20
-844.4621774931
 10
1253.6230255438
 20
-837.2069678629
 10
1254.2451796845
 20
-830.0582058865
 10
1254.6189151872
 20
-823.0286018018
 10
1254.7435675639
 20
-816.1306539883
  0
LWPOLYLINE
  5
9D
330
1F
100
AcDbEntity
  8
0
  6
Continuous
 62
     7
370
    25
100
AcDbPolyline
 90
      160
 70
   128
 43
0.0
 10
1273.6233186216
 20
-805.2316056954
 10
1273.4991115003
 20
-798.0450890479
 10
1273.1266840712
 20
-791.0131997828
 10
1272.5066178354
 20
-784.1469173605
 10
1271.6398809528
 20
-777.4569626658
 10
1270.5278267301
 20
-770.9537812688
 10
1269.172191508
 20
-764.6475271154
 10
1267.57509195
 20
-758.5480466729
 10
1265.7390217374
 20
-752.6648635558
 10
1263.6668476759
 20
-747.0071636562
 10
1261.3618052193
 20
-741.5837808009
 10
1258.8274934179
 20
-736.4031829585
 10
1256.0678692986
 20
-731.4734590175
 10
1253.0872416869
 20
-726.8023061566
 10
1249.890264479
 20
-722.3970178266
 10
1246.4819293753
 20
-718.2644723622
 10
1242.8675580866
 20
-714.4111222426
 10
1239.0527940244
 20
-710.8429840166
 10
1235.0435934901
 20
-707.5656289085
 10
1230.8462163743
 20
-704.5841741193
 10
1226.4672163832
 20
-701.9032748365
 10
1221.9134308054
 20
-699.5271169664
 10
1217.1919698366
 20
-697.4594105972
 10
1212.3102054776
 20
-695.7033842071
 10
1207.2757600239
 20
-694.2617796228
 10
1202.0964941644
 20
-693.1368477387
 10
1196.7804947081
 20
-692.3303450024
 10
1191.336061957
 20
-691.8435306723
 10
1185.7716967465
 20
-691.677164851
 10
1180.0960871724
 20
-691.8315072992
 10
1174.3180950254
 20
-692.3063170293
 10
1168.4467419542
 20
-693.1008526823
 10
1162.4911953797
 20
-694.2138736852
 10
1156.4607541809
 20
-695.6436421878
 10
1150.3648341759
 20
-697.3879257762
 10
1144.2129534202
 20
-699.4440009587
 10
1138.0147173453
 20
-701.808657418
 10
1131.779803761
 20
-704.4782030238
 10
1125.5179477447
 20
-707.4484695973
 10
1119.2389264414
 20
-710.7148194201
 10
1112.9525437974
 20
-714.2721524746
 10
1106.668615253
 20
-718.1149144074
 10
1100.3969524166
 20
-722.237105202
 10
1094.1473477453
 20
-726.6322885469
 10
1087.929559255
 20
-731.2936018849
 10
1081.7532952841
 20
-736.2137671286
 10
1075.6281993358
 20
-741.3851020241
 10
1069.5638350203
 20
-746.7995321457
 10
1063.5696711225
 20
-752.4486035036
 10
1057.6550668179
 20
-758.3234957434
 10
1051.829257059
 20
-764.4150359184
 10
1046.1013381562
 20
-770.7137128115
 10
1040.4802535748
 20
-777.2096917866
 10
1034.9747799711
 20
-783.8928301435
 10
1029.5935134888
 20
-790.7526929552
 10
1024.3448563365
 20
-797.7785693601
 10
1019.2370036695
 20
-804.9594892862
 10
1014.2779307932
 20
-812.2842405795
 10
1009.4753807113
 20
-819.7413865104
 10
1004.8368520356
 20
-827.3192836307
 10
1000.3695872781
 20
-835.0060999536
 10
996.0805615424
 20
-842.7898334278
 10
991.9764716331
 20
-850.6583306776
 10
988.0637255992
 20
-858.5993059786
 10
984.3484327294
 20
-866.6003604404
 10
980.8363940123
 20
-874.6490013664
 10
977.5330930796
 20
-882.732661759
 10
974.4436876434
 20
-890.8387199423
 10
971.5730014438
 20
-898.9545192686
 10
968.9255167163
 20
-907.0673878806
 10
966.5053671942
 20
-915.1646584971
 10
964.3163316536
 20
-923.2336881912
 10
962.3618280137
 20
-931.261878131
 10
960.6449079998
 20
-939.2366932507
 10
959.1682523788
 20
-947.1456818233
 10
957.9341667731
 20
-954.976494902
 10
956.9445780609
 20
-962.7169056017
 10
956.2010313676
 20
-970.35482819
 10
955.7046876529
 20
-977.8783369574
 10
955.4563218988
 20
-985.275684838
 10
955.4563218988
 20
-992.5353217513
 10
955.7046876529
 20
-999.645912636
 10
956.2010313676
 20
-1006.5963551485
 10
956.9445780609
 20
-1013.3757969979
 10
957.9341667731
 20
-1019.9736528905
 10
959.1682523788
 20
-1026.3796210576
 10
960.6449079998
 20
-1032.5836993402
 10
962.3618280137
 20
-1038.5762008067
 10
964.3163316536
 20
-1044.3477688773
 10
966.5053671942
 20
-1049.8893919336
 10
968.9255167163
 20
-1055.192417389
 10
971.5730014438
 20
-1060.2485651989
 10
974.4436876434
 20
-1065.0499407885
 10
977.5330930796
 20
-1069.58904738
 10
980.8363940123
 20
-1073.858797697
 10
984.3484327294
 20
-1077.8525250315
 10
988.0637255992
 20
-1081.5639936522
 10
991.9764716331
 20
-1084.9874085415
 10
996.0805615424
 20
-1088.1174244433
 10
1000.3695872781
 20
-1090.9491542095
 10
1004.8368520356
 20
-1093.4781764301
 10
1009.4753807113
 20
-1095.7005423372
 10
1014.2779307932
 20
-1097.6127819701
 10
1019.2370036695
 20
-1099.2119095938
 10
1024.3448563365
 20
-1100.4954283602
 10
1029.5935134888
 20
-1101.4613342072
 10
1034.9747799711
 20
-1102.1081189875
 10
1040.4802535748
 20
-1102.4347728233
 10
1046.1013381562
 20
-1102.4407856835
 10
1051.829257059
 20
-1102.1261481797
 10
1057.6550668179
 20
-1101.4913515811
 10
1063.5696711225
 20
-1100.5373870472
 10
1069.5638350203
 20
-1099.2657440803
 10
1075.6281993358
 20
-1097.6784082
 10
1081.7532952841
 20
-1095.7778578429
 10
1087.929559255
 20
-1093.5670604926
 10
1094.1473477453
 20
-1091.0494680469
 10
1100.3969524166
 20
-1088.2290114275
 10
1106.668615253
 20
-1085.1100944426
 10
1112.9525437974
 20
-1081.6975869108
 10
1119.2389264414
 20
-1077.9968170576
 10
1125.5179477447
 20
-1074.0135631957
 10
1131.779803761
 20
-1069.7540447032
 10
1138.0147173453
 20
-1065.2249123127
 10
1144.2129534202
 20
-1060.4332377267
 10
1150.3648341759
 20
-1055.3865025762
 10
1156.4607541809
 20
-1050.0925867392
 10
1162.4911953797
 20
-1044.5597560367
 10
1168.4467419542
 20
-1038.7966493272
 10
1174.3180950254
 20
-1032.8122650176
 10
1180.0960871724
 20
-1026.6159470137
 10
1185.7716967465
 20
-1020.2173701304
 10
1191.336061957
 20
-1013.626524986
 10
1196.7804947081
 20
-1006.8537024028
 10
1202.0964941644
 20
-999.9094773394
 10
1207.2757600239
 20
-992.8046923788
 10
1212.3102054776
 20
-985.5504407992
 10
1217.1919698366
 20
-978.1580492536
 10
1221.9134308054
 20
-970.6390600837
 10
1226.4672163832
 20
-963.0052132985
 10
1230.8462163743
 20
-955.2684282436
 10
1235.0435934901
 20
-947.4407849905
 10
1239.0527940244
 20
-939.5345054748
 10
1242.8675580866
 20
-931.5619344137
 10
1246.4819293753
 20
-923.5355200302
 10
1249.890264479
 20
-915.4677946178
 10
1253.0872416869
 20
-907.3713549719
 10
1256.0678692986
 20
-899.258842722
 10
1258.8274934179
 20
-891.1429245929
 10
1261.3618052193
 20
-883.0362726273
 10
1263.6668476759
 20
-874.9515444001
 10
1265.7390217374
 20
-866.9013632545
 10
1267.57509195
 20
-858.8982985929
 10
1269.172191508
 20
-850.9548462506
 10
1270.5278267301
 20
-843.0834089857
 10
1271.6398809528
 20
-835.2962771129
 10
1272.5066178354
 20
-827.6056093143
 10
1273.1266840712
 20
-820.0234136547
 10
1273.4991115003
 20
-812.5615288326
 10
1273.6233186216
 20
-805.2316056954
  0
LWPOLYLINE
  5
9E
330
1F
100
AcDbEntity
  8
0
  6
Continuous
 62
     7
370
    25
100
AcDbPolyline
 90
       21
 70
   128
 43
0.0
 10
1973.6590319963
 20
-1209.3536210477
 10
1973.534824875
 20
-1202.1671044002
 10
1973.1623974459
 20
-1195.1352151351
 10
1972.5423312101
 20
-1188.2689327127
 10
1971.6755943275
 20
-1181.578978018
 10
1970.5635401048
 20
-1175.0757966211
 10
1969.2079048827
 20
-1168.7695424677
 10
1967.6108053246
 20
-1162.6700620251
 10
1965.774735112
 20
-1156.786878908
 10
1963.7025610506
 20
-1151.1291790084
 10
1961.397518594
 20
-1145.7057961532
 10
1958.8632067926
 20
-1140.5251983107
 10
1956.1035826733
 20
-1135.5954743697
 10
1953.1229550616
 20
-1130.9243215089
 10
1949.9259778537
 20
-1126.5190331789
 10
1946.51764275
 20
-1122.3864877145
 10
1942.9032714612
 20
-1118.5331375949
 10
1939.0885073991
 20
-1114.9649993689
 10
1935.0793068648
 20
-1111.6876442608
 10
1930.881929749
 20
-1108.7061894715
 10
1927.0508636509
 20
-1106.3385395921
  0
LWPOLYLINE
  5
9F
330
1F
100
AcDbEntity
  8
0
  6
Continuous
 62
     7
370
    25
100
AcDbPolyline
 90
       61
 70
   128
 43
0.0
 10
1702.0691488078
 20
-1496.0605276634
 10
1704.8725654103
 20
-1497.6001917824
 10
1709.5110940859
 20
-1499.8225576894
 10
1714.3136441678
 20
-1501.7347973224
 10
1719.2727170441
 20
-1503.3339249461
 10
1724.3805697112
 20
-1504.6174437125
 10
1729.6292268635
 20
-1505.5833495595
 10
1735.0104933458
 20
-1506.2301343397
 10
1740.5159669494
 20
-1506.5567881755
 10
1746.1370515308
 20
-1506.5628010357
 10
1751.8649704337
 20
-1506.248163532
 10
1757.6907801926
 20
-1505.6133669334
 10
1763.6053844972
 20
-1504.6594023994
 10
1769.5995483949
 20
-1503.3877594325
 10
1775.6639127105
 20
-1501.8004235522
 10
1781.7890086588
 20
-1499.8998731951
 10
1787.9652726296
 20
-1497.6890758449
 10
1794.18306112
 20
-1495.1714833992
 10
1800.4326657913
 20
-1492.3510267798
 10
1806.7043286277
 20
-1489.2321097948
 10
1812.9882571721
 20
-1485.819602263
 10
1819.2746398161
 20
-1482.1188324098
 10
1825.5536611194
 20
-1478.1355785479
 10
1831.8155171356
 20
-1473.8760600555
 10
1838.0504307199
 20
-1469.3469276649
 10
1844.2486667949
 20
-1464.5552530789
 10
1850.4005475506
 20
-1459.5085179285
 10
1856.4964675556
 20
-1454.2146020914
 10
1862.5269087543
 20
-1448.681771389
 10
1868.4824553288
 20
-1442.9186646794
 10
1874.3538084
 20
-1436.9342803698
 10
1880.1318005471
 20
-1430.7379623659
 10
1885.8074101212
 20
-1424.3393854826
 10
1891.3717753317
 20
-1417.7485403382
 10
1896.8162080828
 20
-1410.9757177551
 10
1902.1322075391
 20
-1404.0314926916
 10
1907.3114733986
 20
-1396.926707731
 10
1912.3459188523
 20
-1389.6724561515
 10
1917.2276832113
 20
-1382.2800646058
 10
1921.9491441801
 20
-1374.7610754359
 10
1926.5029297579
 20
-1367.1272286507
 10
1930.881929749
 20
-1359.3904435958
 10
1935.0793068648
 20
-1351.5628003427
 10
1939.0885073991
 20
-1343.6565208271
 10
1942.9032714612
 20
-1335.6839497659
 10
1946.51764275
 20
-1327.6575353825
 10
1949.9259778537
 20
-1319.58980997
 10
1953.1229550616
 20
-1311.4933703242
 10
1956.1035826733
 20
-1303.3808580742
 10
1958.8632067926
 20
-1295.2649399451
 10
1961.397518594
 20
-1287.1582879796
 10
1963.7025610506
 20
-1279.0735597523
 10
1965.774735112
 20
-1271.0233786067
 10
1967.6108053246
 20
-1263.0203139451
 10
1969.2079048827
 20
-1255.0768616029
 10
1970.5635401048
 20
-1247.2054243379
 10
1971.6755943275
 20
-1239.4182924651
 10
1972.5423312101
 20
-1231.7276246665
 10
1973.1623974459
 20
-1224.1454290069
 10
1973.534824875
 20
-1216.6835441849
 10
1973.6590319963
 20
-1209.3536210477
  0
LINE
  5
A0
330
1F
100
AcDbEntity
  8
0
  6
Continuous
 62
     7
370
    25
100
AcDbLine
 10
-1258.6828906325
 20
331.4482870644
 30
0.0
 11
-1753.6828906325
 21
331.4482870644
 31
0.0
  0
LINE
  5
A1
330
1F
100
AcDbEntity
  8
0
  6
Continuous
 62
     7
370
    25
100
AcDbLine
 10
-763.6828906325
 20
331.4482870644
 30
0.0
 11
-1258.6828906325
 21
331.4482870644
 31
0.0
  0
LINE
  5
A2
330
1F
100
AcDbEntity
  8
0
  6
Continuous
 62
     7
370
    25
100
AcDbLine
 10
-1258.6828906325
 20
-118.5517129356
 30
0.0
 11
-763.6828906325
 21
-118.5517129356
 31
0.0
  0
LINE
  5
A3
330
1F
100
AcDbEntity
  8
0
  6
Continuous
 62
     7
370
    25
100
AcDbLine
 10
-1753.6828906325
 20
-118.5517129356
 30
0.0
 11
-1258.6828906325
 21
-118.5517129356
 31
0.0
  0
CIRCLE
  5
A4
330
1F
100
AcDbEntity
  8
0
  6
Continuous
 62
     7
370
    25
100
AcDbCircle
 10
-1258.6828906325
 20
106.4482870644
 30
0.0
 40
198.3
  0
CIRCLE
  5
A5
330
1F
100
AcDbEntity
  8
0
  6
Continuous
 62
     7
370
    25
100
AcDbCircle
 10
-1258.6828906325
 20
106.4482870644
 30
0.0
 40
224.9999999999998
  0
LINE
  5
A6
330
1F
100
AcDbEntity
  8
0
  6
Continuous
 62
     7
370
    25
100
AcDbLine
 10
-1753.6828906325
 20
106.4482870644
 30
0.0
 11
-1753.6828906325
 21
331.4482870644
 31
0.0
  0
LINE
  5
A7
330
1F
100
AcDbEntity
  8
0
  6
Continuous
 62
     7
370
    25
100
AcDbLine
 10
-1753.6828906325
 20
-118.5517129356
 30
0.0
 11
-1753.6828906325
 21
106.4482870644
 31
0.0
  0
LINE
  5
A8
330
1F
100
AcDbEntity
  8
0
  6
Continuous
 62
     7
370
    25
100
AcDbLine
 10
-763.6828906325
 20
106.4482870644
 30
0.0
 11
-763.6828906325
 21
331.4482870644
 31
0.0
  0
LINE
  5
A9
330
1F
100
AcDbEntity
  8
0
  6
Continuous
 62
     7
370
    25
100
AcDbLine
 10
-763.6828906325
 20
-118.5517129356
 30
0.0
 11
-763.6828906325
 21
106.4482870644
 31
0.0
  0
INSERT
  5
B5
330
1F
100
AcDbEntity
  8
FORMAT
100
AcDbBlockReference
  2
SW_CENTERMARKSYMBOL_0
 10
-1258.6828906325
 20
106.4482870644
 30
0.0
  0
LINE
  5
B6
330
1F
100
AcDbEntity
  8
0
  6
Continuous
 62
     7
370
    25
100
AcDbLine
 10
-232.3585964356
 20
-691.9748297173
 30
0.0
 11
-232.3585964356
 21
-1681.9748297173
 31
0.0
  0
LINE
  5
B7
330
1F
100
AcDbEntity
  8
0
  6
Continuous
 62
     7
370
    25
100
AcDbLine
 10
217.6414035644
 20
-961.9748297173
 30
0.0
 11
217.6414035644
 21
-691.9748297173
 31
0.0
  0
LINE
  5
B8
330
1F
100
AcDbEntity
  8
0
  6
Continuous
 62
     7
370
    25
100
AcDbLine
 10
217.6414035644
 20
-1681.9748297173
 30
0.0
 11
217.6414035644
 21
-1411.9748297173
 31
0.0
  0
LINE
  5
B9
330
1F
100
AcDbEntity
  8
0
  6
Continuous
 62
     7
370
    25
100
AcDbLine
 10
217.6414035644
 20
-1411.9748297173
 30
0.0
 11
487.6414035644
 21
-1411.9748297173
 31
0.0
  0
LINE
  5
BA
330
1F
100
AcDbEntity
  8
0
  6
Continuous
 62
     7
370
    25
100
AcDbLine
 10
487.6414035644
 20
-961.9748297173
 30
0.0
 11
217.6414035644
 21
-961.9748297173
 31
0.0
  0
LINE
  5
BB
330
1F
100
AcDbEntity
  8
0
  6
Continuous
 62
     7
370
    25
100
AcDbLine
 10
-7.3585964356
 20
-1186.9748297173
 30
0.0
 11
217.6414035644
 21
-1411.9748297173
 31
0.0
  0
LINE
  5
BC
330
1F
100
AcDbEntity
  8
0
  6
Continuous
 62
     7
370
    25
100
AcDbLine
 10
217.6414035644
 20
-961.9748297173
 30
0.0
 11
-7.3585964356
 21
-1186.9748297173
 31
0.0
  0
LINE
  5
BD
330
1F
100
AcDbEntity
  8
0
  6
Continuous
 62
     7
370
    25
100
AcDbLine
 10
217.6414035644
 20
-1681.9748297173
 30
0.0
 11
-232.3585964356
 21
-1681.9748297173
 31
0.0
  0
LINE
  5
BE
330
1F
100
AcDbEntity
  8
0
  6
Continuous
 62
     7
370
    25
100
AcDbLine
 10
217.6414035644
 20
-691.9748297173
 30
0.0
 11
-232.3585964356
 21
-691.9748297173
 31
0.0
  0
LINE
  5
BF
330
1F
100
AcDbEntity
  8
0
  6
Continuous
 62
     7
370
    25
100
AcDbLine
 10
487.6414035644
 20
-961.9748297173
 30
0.0
 11
487.6414035644
 21
-1411.9748297173
 31
0.0
  0
LINE
  5
C0
330
1F
100
AcDbEntity
  8
0
  6
Continuous
 62
     7
370
    25
100
AcDbLine
 10
75.6519749969
 20
-118.5517129356
 30
0.0
 11
570.6519749969
 21
-118.5517129356
 31
0.0
  0
LINE
  5
C1
330
1F
100
AcDbEntity
  8
0
  6
Continuous
 62
     7
370
    25
100
AcDbLine
 10
570.6519749969
 20
331.4482870644
 30
0.0
 11
75.6519749969
 21
331.4482870644
 31
0.0
  0
CIRCLE
  5
C2
330
1F
100
AcDbEntity
  8
0
  6
Continuous
 62
     7
370
    25
100
AcDbCircle
 10
75.6519749969
 20
106.4482870644
 30
0.0
 40
198.3
  0
CIRCLE
  5
C3
330
1F
100
AcDbEntity
  8
0
  6
Continuous
 62
     7
370
    25
100
AcDbCircle
 10
75.6519749969
 20
106.4482870644
 30
0.0
 40
224.9999999999999
  0
LINE
  5
C4
330
1F
100
AcDbEntity
  8
0
  6
Continuous
 62
     7
370
    25
100
AcDbLine
 10
570.6519749969
 20
331.4482870644
 30
0.0
 11
570.6519749969
 21
-118.5517129356
 31
0.0
  0
INSERT
  5
D0
330
1F
100
AcDbEntity
  8
FORMAT
 62
     7
100
AcDbBlockReference
  2
SW_CENTERMARKSYMBOL_1
 10
75.6519749969
 20
106.4482870644
 30
0.0
  0
ENDSEC
  0
SECTION
  2
OBJECTS
  0
DICTIONARY
  5
C
330
0
100
AcDbDictionary
281
     1
  3
ACAD_GROUP
350
D
  3
ACAD_LAYOUT
350
1A
  3
ACAD_MLINESTYLE
350
17
  3
ACAD_PLOTSETTINGS
350
19
  3
ACAD_PLOTSTYLENAME
350
E
  3
ACAD_SCALELIST
350
47
  3
DWGPROPS
350
D1
  0
DICTIONARY
  5
D
102
{ACAD_REACTORS
330
C
102
}
330
C
100
AcDbDictionary
281
     1
  0
DICTIONARY
  5
1A
102
{ACAD_REACTORS
330
C
102
}
330
C
100
AcDbDictionary
281
     1
  3
Layout1
350
1E
  3
Layout2
350
26
  3
Model
350
22
  0
DICTIONARY
  5
17
102
{ACAD_REACTORS
330
C
102
}
330
C
100
AcDbDictionary
281
     1
  3
Standard
350
18
  0
DICTIONARY
  5
19
102
{ACAD_REACTORS
330
C
102
}
330
C
100
AcDbDictionary
281
     1
  0
ACDBDICTIONARYWDFLT
  5
E
102
{ACAD_REACTORS
330
C
102
}
330
C
100
AcDbDictionary
281
     1
  3
Normal
350
F
100
AcDbDictionaryWithDefault
340
F
  0
DICTIONARY
  5
47
102
{ACAD_REACTORS
330
C
102
}
330
C
100
AcDbDictionary
281
     1
  3
A0
350
48
  3
A1
350
49
  3
A2
350
4A
  3
A3
350
4B
  3
A4
350
4C
  3
A5
350
4D
  3
A6
350
4E
  3
A7
350
4F
  3
A8
350
50
  3
A9
350
51
  3
B0
350
52
  3
B1
350
53
  3
B2
350
54
  3
B3
350
55
  3
B4
350
56
  3
B5
350
57
  3
B6
350
58
  3
B7
350
59
  3
B8
350
5A
  3
B9
350
5B
  3
C0
350
5C
  3
C1
350
5D
  3
C2
350
5E
  3
C3
350
5F
  3
C4
350
60
  3
C5
350
61
  3
C6
350
62
  3
C7
350
63
  3
C8
350
64
  3
C9
350
65
  3
D0
350
66
  3
D1
350
67
  3
D2
350
68
  0
XRECORD
  5
D1
102
{ACAD_REACTORS
330
C
102
}
330
C
100
AcDbXrecord
280
     1
  1
DWGPROPS COOKIE
  2

  3

  4

  6

  7

  8
b.kav
  9

300
=
301
=
302
=
303
=
304
=
305
=
306
=
307
=
308
=
309
=
 40
0.0
 41
2460703.468676343
 42
2460703.468676481
  1

 90
        0
  0
LAYOUT
  5
1E
102
{ACAD_REACTORS
330
1A
102
}
330
1A
100
AcDbPlotSettings
  1

  2
none_device
  4

  6

 40
0.0
 41
0.0
 42
0.0
 43
0.0
 44
0.0
 45
0.0
 46
0.0
 47
0.0
 48
0.0
 49
0.0
140
0.0
141
0.0
142
1.0
143
1.0
 70
   688
 72
     1
 73
     0
 74
     5
  7

 75
    16
147
1.0
148
0.0
149
0.0
100
AcDbLayout
  1
Layout1
 70
     1
 71
     1
 10
0.0
 20
0.0
 11
420.0
 21
297.0
 12
0.0
 22
0.0
 32
0.0
 14
1.0000000000E+20
 24
1.0000000000E+20
 34
1.0000000000E+20
 15
-1.0000000000E+20
 25
-1.0000000000E+20
 35
-1.0000000000E+20
146
0.0
 13
0.0
 23
0.0
 33
0.0
 16
1.0
 26
0.0
 36
0.0
 17
0.0
 27
1.0
 37
0.0
 76
     0
330
1B
  0
LAYOUT
  5
26
102
{ACAD_REACTORS
330
1A
102
}
330
1A
100
AcDbPlotSettings
  1

  2
none_device
  4

  6

 40
0.0
 41
0.0
 42
0.0
 43
0.0
 44
0.0
 45
0.0
 46
0.0
 47
0.0
 48
0.0
 49
0.0
140
0.0
141
0.0
142
1.0
143
1.0
 70
   688
 72
     1
 73
     0
 74
     5
  7

 75
    16
147
1.0
148
0.0
149
0.0
100
AcDbLayout
  1
Layout2
 70
     1
 71
     2
 10
0.0
 20
0.0
 11
0.0
 21
0.0
 12
0.0
 22
0.0
 32
0.0
 14
0.0
 24
0.0
 34
0.0
 15
0.0
 25
0.0
 35
0.0
146
0.0
 13
0.0
 23
0.0
 33
0.0
 16
1.0
 26
0.0
 36
0.0
 17
0.0
 27
1.0
 37
0.0
 76
     0
330
23
  0
LAYOUT
  5
22
102
{ACAD_REACTORS
330
1A
102
}
330
1A
100
AcDbPlotSettings
  1

  2
none_device
  4
Letter_(8.50_x_11.00_Inches)
  6

 40
6.35
 41
6.35
 42
6.35000508
 43
6.35000508
 44
215.9
 45
279.4
 46
0.0
 47
0.0
 48
0.0
 49
0.0
140
0.0
141
0.0
142
1.0
143
1.0
 70
  1712
 72
     1
 73
     0
 74
     0
  7

 75
     0
147
1.0
148
0.0
149
0.0
100
AcDbLayout
  1
Model
 70
     1
 71
     0
 10
0.0
 20
0.0
 11
279.4
 21
215.9
 12
0.0
 22
0.0
 32
0.0
 14
0.0
 24
0.0
 34
0.0
 15
279.4
 25
215.9
 35
0.0
146
0.0
 13
0.0
 23
0.0
 33
0.0
 16
1.0
 26
0.0
 36
0.0
 17
0.0
 27
1.0
 37
0.0
 76
     0
330
1F
331
29
  0
MLINESTYLE
  5
18
102
{ACAD_REACTORS
330
17
102
}
330
17
100
AcDbMlineStyle
  2
Standard
 70
     0
  3

 62
   256
 51
90.0
 52
90.0
 71
     2
 49
0.5
 62
   256
  6
BYLAYER
 49
-0.5
 62
   256
  6
BYLAYER
  0
ACDBPLACEHOLDER
  5
F
102
{ACAD_REACTORS
330
E
102
}
330
E
  0
SCALE
  5
48
102
{ACAD_REACTORS
330
47
102
}
330
47
100
AcDbScale
 70
     0
300
1:1
140
1.0
141
1.0
290
     1
  0
SCALE
  5
49
102
{ACAD_REACTORS
330
47
102
}
330
47
100
AcDbScale
 70
     0
300
1:2
140
1.0
141
2.0
290
     0
  0
SCALE
  5
4A
102
{ACAD_REACTORS
330
47
102
}
330
47
100
AcDbScale
 70
     0
300
1:4
140
1.0
141
4.0
290
     0
  0
SCALE
  5
4B
102
{ACAD_REACTORS
330
47
102
}
330
47
100
AcDbScale
 70
     0
300
1:5
140
1.0
141
5.0
290
     0
  0
SCALE
  5
4C
102
{ACAD_REACTORS
330
47
102
}
330
47
100
AcDbScale
 70
     0
300
1:8
140
1.0
141
8.0
290
     0
  0
SCALE
  5
4D
102
{ACAD_REACTORS
330
47
102
}
330
47
100
AcDbScale
 70
     0
300
1:10
140
1.0
141
10.0
290
     0
  0
SCALE
  5
4E
102
{ACAD_REACTORS
330
47
102
}
330
47
100
AcDbScale
 70
     0
300
1:16
140
1.0
141
16.0
290
     0
  0
SCALE
  5
4F
102
{ACAD_REACTORS
330
47
102
}
330
47
100
AcDbScale
 70
     0
300
1:20
140
1.0
141
20.0
290
     0
  0
SCALE
  5
50
102
{ACAD_REACTORS
330
47
102
}
330
47
100
AcDbScale
 70
     0
300
1:30
140
1.0
141
30.0
290
     0
  0
SCALE
  5
51
102
{ACAD_REACTORS
330
47
102
}
330
47
100
AcDbScale
 70
     0
300
1:40
140
1.0
141
40.0
290
     0
  0
SCALE
  5
52
102
{ACAD_REACTORS
330
47
102
}
330
47
100
AcDbScale
 70
     0
300
1:50
140
1.0
141
50.0
290
     0
  0
SCALE
  5
53
102
{ACAD_REACTORS
330
47
102
}
330
47
100
AcDbScale
 70
     0
300
1:100
140
1.0
141
100.0
290
     0
  0
SCALE
  5
54
102
{ACAD_REACTORS
330
47
102
}
330
47
100
AcDbScale
 70
     0
300
2:1
140
2.0
141
1.0
290
     0
  0
SCALE
  5
55
102
{ACAD_REACTORS
330
47
102
}
330
47
100
AcDbScale
 70
     0
300
4:1
140
4.0
141
1.0
290
     0
  0
SCALE
  5
56
102
{ACAD_REACTORS
330
47
102
}
330
47
100
AcDbScale
 70
     0
300
8:1
140
8.0
141
1.0
290
     0
  0
SCALE
  5
57
102
{ACAD_REACTORS
330
47
102
}
330
47
100
AcDbScale
 70
     0
300
10:1
140
10.0
141
1.0
290
     0
  0
SCALE
  5
58
102
{ACAD_REACTORS
330
47
102
}
330
47
100
AcDbScale
 70
     0
300
100:1
140
100.0
141
1.0
290
     0
  0
SCALE
  5
59
102
{ACAD_REACTORS
330
47
102
}
330
47
100
AcDbScale
 70
     0
300
1/128" = 1'-0"
140
0.0078125
141
12.0
290
     0
  0
SCALE
  5
5A
102
{ACAD_REACTORS
330
47
102
}
330
47
100
AcDbScale
 70
     0
300
1/64" = 1'-0"
140
0.015625
141
12.0
290
     0
  0
SCALE
  5
5B
102
{ACAD_REACTORS
330
47
102
}
330
47
100
AcDbScale
 70
     0
300
1/32" = 1'-0"
140
0.03125
141
12.0
290
     0
  0
SCALE
  5
5C
102
{ACAD_REACTORS
330
47
102
}
330
47
100
AcDbScale
 70
     0
300
1/16" = 1'-0"
140
0.0625
141
12.0
290
     0
  0
SCALE
  5
5D
102
{ACAD_REACTORS
330
47
102
}
330
47
100
AcDbScale
 70
     0
300
3/32" = 1'-0"
140
0.09375
141
12.0
290
     0
  0
SCALE
  5
5E
102
{ACAD_REACTORS
330
47
102
}
330
47
100
AcDbScale
 70
     0
300
1/8" = 1'-0"
140
0.125
141
12.0
290
     0
  0
SCALE
  5
5F
102
{ACAD_REACTORS
330
47
102
}
330
47
100
AcDbScale
 70
     0
300
3/16" = 1'-0"
140
0.1875
141
12.0
290
     0
  0
SCALE
  5
60
102
{ACAD_REACTORS
330
47
102
}
330
47
100
AcDbScale
 70
     0
300
1/4" = 1'-0"
140
0.25
141
12.0
290
     0
  0
SCALE
  5
61
102
{ACAD_REACTORS
330
47
102
}
330
47
100
AcDbScale
 70
     0
300
3/8" = 1'-0"
140
0.375
141
12.0
290
     0
  0
SCALE
  5
62
102
{ACAD_REACTORS
330
47
102
}
330
47
100
AcDbScale
 70
     0
300
1/2" = 1'-0"
140
0.5
141
12.0
290
     0
  0
SCALE
  5
63
102
{ACAD_REACTORS
330
47
102
}
330
47
100
AcDbScale
 70
     0
300
3/4" = 1'-0"
140
0.75
141
12.0
290
     0
  0
SCALE
  5
64
102
{ACAD_REACTORS
330
47
102
}
330
47
100
AcDbScale
 70
     0
300
1" = 1'-0"
140
1.0
141
12.0
290
     0
  0
SCALE
  5
65
102
{ACAD_REACTORS
330
47
102
}
330
47
100
AcDbScale
 70
     0
300
1-1/2" = 1'-0"
140
1.5
141
12.0
290
     0
  0
SCALE
  5
66
102
{ACAD_REACTORS
330
47
102
}
330
47
100
AcDbScale
 70
     0
300
3" = 1'-0"
140
3.0
141
12.0
290
     0
  0
SCALE
  5
67
102
{ACAD_REACTORS
330
47
102
}
330
47
100
AcDbScale
 70
     0
300
6" = 1'-0"
140
6.0
141
12.0
290
     0
  0
SCALE
  5
68
102
{ACAD_REACTORS
330
47
102
}
330
47
100
AcDbScale
 70
     0
300
1'-0" = 1'-0"
140
12.0
141
12.0
290
     0
  0
ENDSEC
  0
EOF
